ISO-10303-21;
HEADER;
FILE_DESCRIPTION(('FreeCAD Model'),'2;1');
FILE_NAME('Open CASCADE Shape Model','2026-03-20T00:36:18',('Author'),(
    ''),'Open CASCADE STEP processor 7.8','FreeCAD','Unknown');
FILE_SCHEMA(('AUTOMOTIVE_DESIGN { 1 0 10303 214 1 1 1 1 }'));
ENDSEC;
DATA;
#1 = APPLICATION_PROTOCOL_DEFINITION('international standard',
  'automotive_design',2000,#2);
#2 = APPLICATION_CONTEXT(
  'core data for automotive mechanical design processes');
#3 = SHAPE_DEFINITION_REPRESENTATION(#4,#10);
#4 = PRODUCT_DEFINITION_SHAPE('','',#5);
#5 = PRODUCT_DEFINITION('design','',#6,#9);
#6 = PRODUCT_DEFINITION_FORMATION('','',#7);
#7 = PRODUCT('EiAndockerRechtsORing16x2','EiAndockerRechtsORing16x2','',
  (#8));
#8 = PRODUCT_CONTEXT('',#2,'mechanical');
#9 = PRODUCT_DEFINITION_CONTEXT('part definition',#2,'design');
#10 = ADVANCED_BREP_SHAPE_REPRESENTATION('',(#11,#15),#548);
#11 = AXIS2_PLACEMENT_3D('',#12,#13,#14);
#12 = CARTESIAN_POINT('',(0.,0.,0.));
#13 = DIRECTION('',(0.,0.,1.));
#14 = DIRECTION('',(1.,0.,-0.));
#15 = MANIFOLD_SOLID_BREP('',#16);
#16 = CLOSED_SHELL('',(#17,#50,#76,#102,#122,#142,#168,#193,#229,#254,
    #437,#457,#488,#513,#539));
#17 = ADVANCED_FACE('',(#18),#45,.T.);
#18 = FACE_BOUND('',#19,.F.);
#19 = EDGE_LOOP('',(#20,#30,#37,#38));
#20 = ORIENTED_EDGE('',*,*,#21,.T.);
#21 = EDGE_CURVE('',#22,#24,#26,.T.);
#22 = VERTEX_POINT('',#23);
#23 = CARTESIAN_POINT('',(12.,0.,1.9));
#24 = VERTEX_POINT('',#25);
#25 = CARTESIAN_POINT('',(12.,0.,7.));
#26 = LINE('',#27,#28);
#27 = CARTESIAN_POINT('',(12.,0.,0.));
#28 = VECTOR('',#29,1.);
#29 = DIRECTION('',(0.,0.,1.));
#30 = ORIENTED_EDGE('',*,*,#31,.T.);
#31 = EDGE_CURVE('',#24,#24,#32,.T.);
#32 = CIRCLE('',#33,12.);
#33 = AXIS2_PLACEMENT_3D('',#34,#35,#36);
#34 = CARTESIAN_POINT('',(0.,0.,7.));
#35 = DIRECTION('',(0.,0.,1.));
#36 = DIRECTION('',(1.,0.,0.));
#37 = ORIENTED_EDGE('',*,*,#21,.F.);
#38 = ORIENTED_EDGE('',*,*,#39,.F.);
#39 = EDGE_CURVE('',#22,#22,#40,.T.);
#40 = CIRCLE('',#41,12.);
#41 = AXIS2_PLACEMENT_3D('',#42,#43,#44);
#42 = CARTESIAN_POINT('',(0.,0.,1.9));
#43 = DIRECTION('',(0.,0.,1.));
#44 = DIRECTION('',(1.,0.,-0.));
#45 = CYLINDRICAL_SURFACE('',#46,12.);
#46 = AXIS2_PLACEMENT_3D('',#47,#48,#49);
#47 = CARTESIAN_POINT('',(0.,0.,0.));
#48 = DIRECTION('',(-0.,-0.,-1.));
#49 = DIRECTION('',(1.,0.,0.));
#50 = ADVANCED_FACE('',(#51),#71,.T.);
#51 = FACE_BOUND('',#52,.F.);
#52 = EDGE_LOOP('',(#53,#62,#63,#64));
#53 = ORIENTED_EDGE('',*,*,#54,.F.);
#54 = EDGE_CURVE('',#22,#55,#57,.T.);
#55 = VERTEX_POINT('',#56);
#56 = CARTESIAN_POINT('',(10.1,0.,0.));
#57 = CIRCLE('',#58,1.9);
#58 = AXIS2_PLACEMENT_3D('',#59,#60,#61);
#59 = CARTESIAN_POINT('',(10.1,0.,1.9));
#60 = DIRECTION('',(-0.,1.,0.));
#61 = DIRECTION('',(1.,0.,0.));
#62 = ORIENTED_EDGE('',*,*,#39,.F.);
#63 = ORIENTED_EDGE('',*,*,#54,.T.);
#64 = ORIENTED_EDGE('',*,*,#65,.T.);
#65 = EDGE_CURVE('',#55,#55,#66,.T.);
#66 = CIRCLE('',#67,10.1);
#67 = AXIS2_PLACEMENT_3D('',#68,#69,#70);
#68 = CARTESIAN_POINT('',(0.,0.,0.));
#69 = DIRECTION('',(0.,0.,1.));
#70 = DIRECTION('',(1.,0.,-0.));
#71 = TOROIDAL_SURFACE('',#72,10.1,1.9);
#72 = AXIS2_PLACEMENT_3D('',#73,#74,#75);
#73 = CARTESIAN_POINT('',(0.,0.,1.9));
#74 = DIRECTION('',(-0.,-0.,-1.));
#75 = DIRECTION('',(1.,0.,0.));
#76 = ADVANCED_FACE('',(#77),#97,.T.);
#77 = FACE_BOUND('',#78,.F.);
#78 = EDGE_LOOP('',(#79,#88,#95,#96));
#79 = ORIENTED_EDGE('',*,*,#80,.F.);
#80 = EDGE_CURVE('',#81,#24,#83,.T.);
#81 = VERTEX_POINT('',#82);
#82 = CARTESIAN_POINT('',(10.,0.,9.));
#83 = CIRCLE('',#84,2.);
#84 = AXIS2_PLACEMENT_3D('',#85,#86,#87);
#85 = CARTESIAN_POINT('',(10.,0.,7.));
#86 = DIRECTION('',(-0.,1.,0.));
#87 = DIRECTION('',(1.,0.,0.));
#88 = ORIENTED_EDGE('',*,*,#89,.F.);
#89 = EDGE_CURVE('',#81,#81,#90,.T.);
#90 = CIRCLE('',#91,10.);
#91 = AXIS2_PLACEMENT_3D('',#92,#93,#94);
#92 = CARTESIAN_POINT('',(0.,0.,9.));
#93 = DIRECTION('',(0.,0.,1.));
#94 = DIRECTION('',(1.,0.,0.));
#95 = ORIENTED_EDGE('',*,*,#80,.T.);
#96 = ORIENTED_EDGE('',*,*,#31,.T.);
#97 = TOROIDAL_SURFACE('',#98,10.,2.);
#98 = AXIS2_PLACEMENT_3D('',#99,#100,#101);
#99 = CARTESIAN_POINT('',(0.,0.,7.));
#100 = DIRECTION('',(-0.,-0.,-1.));
#101 = DIRECTION('',(1.,0.,0.));
#102 = ADVANCED_FACE('',(#103,#106),#117,.F.);
#103 = FACE_BOUND('',#104,.F.);
#104 = EDGE_LOOP('',(#105));
#105 = ORIENTED_EDGE('',*,*,#65,.T.);
#106 = FACE_BOUND('',#107,.F.);
#107 = EDGE_LOOP('',(#108));
#108 = ORIENTED_EDGE('',*,*,#109,.F.);
#109 = EDGE_CURVE('',#110,#110,#112,.T.);
#110 = VERTEX_POINT('',#111);
#111 = CARTESIAN_POINT('',(0.,9.916515138991,0.));
#112 = CIRCLE('',#113,9.916515138991);
#113 = AXIS2_PLACEMENT_3D('',#114,#115,#116);
#114 = CARTESIAN_POINT('',(0.,0.,0.));
#115 = DIRECTION('',(0.,-0.,1.));
#116 = DIRECTION('',(0.,1.,0.));
#117 = PLANE('',#118);
#118 = AXIS2_PLACEMENT_3D('',#119,#120,#121);
#119 = CARTESIAN_POINT('',(-9.1E-16,-3.E-17,0.));
#120 = DIRECTION('',(0.,0.,1.));
#121 = DIRECTION('',(1.,0.,0.));
#122 = ADVANCED_FACE('',(#123,#126),#137,.T.);
#123 = FACE_BOUND('',#124,.T.);
#124 = EDGE_LOOP('',(#125));
#125 = ORIENTED_EDGE('',*,*,#89,.T.);
#126 = FACE_BOUND('',#127,.T.);
#127 = EDGE_LOOP('',(#128));
#128 = ORIENTED_EDGE('',*,*,#129,.F.);
#129 = EDGE_CURVE('',#130,#130,#132,.T.);
#130 = VERTEX_POINT('',#131);
#131 = CARTESIAN_POINT('',(7.5,0.,9.));
#132 = CIRCLE('',#133,7.5);
#133 = AXIS2_PLACEMENT_3D('',#134,#135,#136);
#134 = CARTESIAN_POINT('',(0.,0.,9.));
#135 = DIRECTION('',(0.,0.,1.));
#136 = DIRECTION('',(1.,0.,0.));
#137 = PLANE('',#138);
#138 = AXIS2_PLACEMENT_3D('',#139,#140,#141);
#139 = CARTESIAN_POINT('',(-9.1E-16,-3.E-17,9.));
#140 = DIRECTION('',(0.,0.,1.));
#141 = DIRECTION('',(1.,0.,0.));
#142 = ADVANCED_FACE('',(#143),#163,.F.);
#143 = FACE_BOUND('',#144,.F.);
#144 = EDGE_LOOP('',(#145,#154,#161,#162));
#145 = ORIENTED_EDGE('',*,*,#146,.T.);
#146 = EDGE_CURVE('',#110,#147,#149,.T.);
#147 = VERTEX_POINT('',#148);
#148 = CARTESIAN_POINT('',(0.,10.,0.4));
#149 = CIRCLE('',#150,1.);
#150 = AXIS2_PLACEMENT_3D('',#151,#152,#153);
#151 = CARTESIAN_POINT('',(0.,9.,0.4));
#152 = DIRECTION('',(1.,0.,0.));
#153 = DIRECTION('',(0.,1.,0.));
#154 = ORIENTED_EDGE('',*,*,#155,.F.);
#155 = EDGE_CURVE('',#147,#147,#156,.T.);
#156 = CIRCLE('',#157,10.);
#157 = AXIS2_PLACEMENT_3D('',#158,#159,#160);
#158 = CARTESIAN_POINT('',(0.,0.,0.4));
#159 = DIRECTION('',(0.,-0.,1.));
#160 = DIRECTION('',(0.,1.,0.));
#161 = ORIENTED_EDGE('',*,*,#146,.F.);
#162 = ORIENTED_EDGE('',*,*,#109,.T.);
#163 = TOROIDAL_SURFACE('',#164,9.,1.);
#164 = AXIS2_PLACEMENT_3D('',#165,#166,#167);
#165 = CARTESIAN_POINT('',(0.,0.,0.4));
#166 = DIRECTION('',(0.,0.,1.));
#167 = DIRECTION('',(0.,1.,0.));
#168 = ADVANCED_FACE('',(#169),#188,.T.);
#169 = FACE_BOUND('',#170,.F.);
#170 = EDGE_LOOP('',(#171,#179,#186,#187));
#171 = ORIENTED_EDGE('',*,*,#172,.T.);
#172 = EDGE_CURVE('',#130,#173,#175,.T.);
#173 = VERTEX_POINT('',#174);
#174 = CARTESIAN_POINT('',(7.5,0.,9.1));
#175 = LINE('',#176,#177);
#176 = CARTESIAN_POINT('',(7.5,0.,9.));
#177 = VECTOR('',#178,1.);
#178 = DIRECTION('',(0.,0.,1.));
#179 = ORIENTED_EDGE('',*,*,#180,.T.);
#180 = EDGE_CURVE('',#173,#173,#181,.T.);
#181 = CIRCLE('',#182,7.5);
#182 = AXIS2_PLACEMENT_3D('',#183,#184,#185);
#183 = CARTESIAN_POINT('',(0.,0.,9.1));
#184 = DIRECTION('',(0.,0.,1.));
#185 = DIRECTION('',(1.,0.,0.));
#186 = ORIENTED_EDGE('',*,*,#172,.F.);
#187 = ORIENTED_EDGE('',*,*,#129,.F.);
#188 = CYLINDRICAL_SURFACE('',#189,7.5);
#189 = AXIS2_PLACEMENT_3D('',#190,#191,#192);
#190 = CARTESIAN_POINT('',(0.,0.,9.));
#191 = DIRECTION('',(-0.,-0.,-1.));
#192 = DIRECTION('',(1.,0.,0.));
#193 = ADVANCED_FACE('',(#194),#224,.F.);
#194 = FACE_BOUND('',#195,.F.);
#195 = EDGE_LOOP('',(#196,#205,#206,#207,#216,#223));
#196 = ORIENTED_EDGE('',*,*,#197,.F.);
#197 = EDGE_CURVE('',#147,#198,#200,.T.);
#198 = VERTEX_POINT('',#199);
#199 = CARTESIAN_POINT('',(0.,8.,0.400000001205));
#200 = CIRCLE('',#201,1.);
#201 = AXIS2_PLACEMENT_3D('',#202,#203,#204);
#202 = CARTESIAN_POINT('',(0.,9.,0.4));
#203 = DIRECTION('',(1.,0.,0.));
#204 = DIRECTION('',(0.,1.,0.));
#205 = ORIENTED_EDGE('',*,*,#155,.T.);
#206 = ORIENTED_EDGE('',*,*,#197,.T.);
#207 = ORIENTED_EDGE('',*,*,#208,.T.);
#208 = EDGE_CURVE('',#198,#209,#211,.T.);
#209 = VERTEX_POINT('',#210);
#210 = CARTESIAN_POINT('',(0.,8.083484861009,0.));
#211 = CIRCLE('',#212,1.);
#212 = AXIS2_PLACEMENT_3D('',#213,#214,#215);
#213 = CARTESIAN_POINT('',(0.,9.,0.4));
#214 = DIRECTION('',(1.,0.,0.));
#215 = DIRECTION('',(0.,1.,0.));
#216 = ORIENTED_EDGE('',*,*,#217,.F.);
#217 = EDGE_CURVE('',#209,#209,#218,.T.);
#218 = CIRCLE('',#219,8.083484861009);
#219 = AXIS2_PLACEMENT_3D('',#220,#221,#222);
#220 = CARTESIAN_POINT('',(0.,0.,0.));
#221 = DIRECTION('',(0.,-0.,1.));
#222 = DIRECTION('',(0.,1.,0.));
#223 = ORIENTED_EDGE('',*,*,#208,.F.);
#224 = TOROIDAL_SURFACE('',#225,9.,1.);
#225 = AXIS2_PLACEMENT_3D('',#226,#227,#228);
#226 = CARTESIAN_POINT('',(0.,0.,0.4));
#227 = DIRECTION('',(0.,0.,1.));
#228 = DIRECTION('',(0.,1.,0.));
#229 = ADVANCED_FACE('',(#230),#249,.T.);
#230 = FACE_BOUND('',#231,.F.);
#231 = EDGE_LOOP('',(#232,#240,#247,#248));
#232 = ORIENTED_EDGE('',*,*,#233,.F.);
#233 = EDGE_CURVE('',#234,#173,#236,.T.);
#234 = VERTEX_POINT('',#235);
#235 = CARTESIAN_POINT('',(6.,0.,10.6));
#236 = LINE('',#237,#238);
#237 = CARTESIAN_POINT('',(7.5,0.,9.1));
#238 = VECTOR('',#239,1.);
#239 = DIRECTION('',(0.707106781187,0.,-0.707106781187));
#240 = ORIENTED_EDGE('',*,*,#241,.T.);
#241 = EDGE_CURVE('',#234,#234,#242,.T.);
#242 = CIRCLE('',#243,6.);
#243 = AXIS2_PLACEMENT_3D('',#244,#245,#246);
#244 = CARTESIAN_POINT('',(0.,0.,10.6));
#245 = DIRECTION('',(0.,0.,1.));
#246 = DIRECTION('',(1.,0.,0.));
#247 = ORIENTED_EDGE('',*,*,#233,.T.);
#248 = ORIENTED_EDGE('',*,*,#180,.F.);
#249 = CONICAL_SURFACE('',#250,7.5,0.785398163397);
#250 = AXIS2_PLACEMENT_3D('',#251,#252,#253);
#251 = CARTESIAN_POINT('',(0.,0.,9.1));
#252 = DIRECTION('',(-0.,-0.,-1.));
#253 = DIRECTION('',(1.,0.,0.));
#254 = ADVANCED_FACE('',(#255,#258),#432,.F.);
#255 = FACE_BOUND('',#256,.F.);
#256 = EDGE_LOOP('',(#257));
#257 = ORIENTED_EDGE('',*,*,#217,.T.);
#258 = FACE_BOUND('',#259,.F.);
#259 = EDGE_LOOP('',(#260));
#260 = ORIENTED_EDGE('',*,*,#261,.T.);
#261 = EDGE_CURVE('',#262,#262,#264,.T.);
#262 = VERTEX_POINT('',#263);
#263 = CARTESIAN_POINT('',(0.,7.959899496853,-1.E-15));
#264 = B_SPLINE_CURVE_WITH_KNOTS('',6,(#265,#266,#267,#268,#269,#270,
    #271,#272,#273,#274,#275,#276,#277,#278,#279,#280,#281,#282,#283,
    #284,#285,#286,#287,#288,#289,#290,#291,#292,#293,#294,#295,#296,
    #297,#298,#299,#300,#301,#302,#303,#304,#305,#306,#307,#308,#309,
    #310,#311,#312,#313,#314,#315,#316,#317,#318,#319,#320,#321,#322,
    #323,#324,#325,#326,#327,#328,#329,#330,#331,#332,#333,#334,#335,
    #336,#337,#338,#339,#340,#341,#342,#343,#344,#345,#346,#347,#348,
    #349,#350,#351,#352,#353,#354,#355,#356,#357,#358,#359,#360,#361,
    #362,#363,#364,#365,#366,#367,#368,#369,#370,#371,#372,#373,#374,
    #375,#376,#377,#378,#379,#380,#381,#382,#383,#384,#385,#386,#387,
    #388,#389,#390,#391,#392,#393,#394,#395,#396,#397,#398,#399,#400,
    #401,#402,#403,#404,#405,#406,#407,#408,#409,#410,#411,#412,#413,
    #414,#415,#416,#417,#418,#419,#420,#421,#422,#423,#424,#425,#426,
    #427,#428,#429,#430,#431),.UNSPECIFIED.,.T.,.F.,(7,5,5,5,5,5,5,5,5,5
    ,5,5,5,5,5,5,5,5,5,5,5,5,5,5,5,5,5,5,5,5,5,5,5,7),(0.,
    1.900049665728E-02,4.200109787471E-02,6.400167295201E-02,
    9.300243101292E-02,0.108002823111,0.132003450468,0.161004208529,
    0.185004835887,0.214005593948,0.237006195165,0.266006953226,
    0.295007711287,0.319008338645,0.347009070565,0.374009776344,
    0.403010534405,0.420010978782,0.442011553859,0.462012076656,
    0.486012704014,0.516013488216,0.545014246277,0.573014978197,
    0.602015736258,0.627016389756,0.648016938693,0.66801746149,
    0.691018062708,0.803003200132,0.8520044812,0.876005108557,
    0.904005840477,1.),.UNSPECIFIED.);
#265 = CARTESIAN_POINT('',(1.75E-15,7.959899496853,0.));
#266 = CARTESIAN_POINT('',(0.158376135629,7.959899497669,0.));
#267 = CARTESIAN_POINT('',(0.316752351616,7.956118089688,0.));
#268 = CARTESIAN_POINT('',(0.475015617318,7.948555279547,0.));
#269 = CARTESIAN_POINT('',(0.633053169985,7.937215556685,0.));
#270 = CARTESIAN_POINT('',(0.790752514768,7.922107893339,0.));
#271 = CARTESIAN_POINT('',(1.138355338001,7.880412624282,0.));
#272 = CARTESIAN_POINT('',(1.328049519396,7.852077734661,0.));
#273 = CARTESIAN_POINT('',(1.516884753828,7.81826499274,0.));
#274 = CARTESIAN_POINT('',(1.704663662893,7.779007782072,0.));
#275 = CARTESIAN_POINT('',(1.891190704861,7.734348952714,0.));
#276 = CARTESIAN_POINT('',(2.253306633934,7.63650695822,0.));
#277 = CARTESIAN_POINT('',(2.429018836525,7.583778745675,0.));
#278 = CARTESIAN_POINT('',(2.603239302083,7.526201992934,0.));
#279 = CARTESIAN_POINT('',(2.775801188964,7.463830138133,0.));
#280 = CARTESIAN_POINT('',(2.946540294248,7.396724248196,0.));
#281 = CARTESIAN_POINT('',(3.337744400845,7.23034554941,0.));
#282 = CARTESIAN_POINT('',(3.556746610884,7.127631172373,0.));
#283 = CARTESIAN_POINT('',(3.771931109825,7.016967583615,0.));
#284 = CARTESIAN_POINT('',(3.982938862859,6.898533945567,0.));
#285 = CARTESIAN_POINT('',(4.189422374394,6.772530887207,0.));
#286 = CARTESIAN_POINT('',(4.495333685936,6.570206123623,0.));
#287 = CARTESIAN_POINT('',(4.598321567445,6.4992659464,0.));
#288 = CARTESIAN_POINT('',(4.699962971259,6.426390636936,0.));
#289 = CARTESIAN_POINT('',(4.800212565896,6.351612267911,0.));
#290 = CARTESIAN_POINT('',(4.899026049716,6.274964320139,0.));
#291 = CARTESIAN_POINT('',(5.152094667792,6.07090950342,0.));
#292 = CARTESIAN_POINT('',(5.304042208553,5.940640308207,0.));
#293 = CARTESIAN_POINT('',(5.45202528765,5.805817242063,0.));
#294 = CARTESIAN_POINT('',(5.595874245688,5.666591784137,0.));
#295 = CARTESIAN_POINT('',(5.735427249427,5.523123747585,0.));
#296 = CARTESIAN_POINT('',(6.033779745648,5.197300879326,0.));
#297 = CARTESIAN_POINT('',(6.190532634937,5.013070743487,0.));
#298 = CARTESIAN_POINT('',(6.340517043336,4.823187948851,0.));
#299 = CARTESIAN_POINT('',(6.483480451658,4.627964327476,0.));
#300 = CARTESIAN_POINT('',(6.619189737838,4.42772646668,0.));
#301 = CARTESIAN_POINT('',(6.853562076147,4.05323432989,0.));
#302 = CARTESIAN_POINT('',(6.954578645737,3.880451891451,0.));
#303 = CARTESIAN_POINT('',(7.050359943099,3.704661692808,0.));
#304 = CARTESIAN_POINT('',(7.140795146125,3.526062350936,0.));
#305 = CARTESIAN_POINT('',(7.225783553202,3.344857800697,0.));
#306 = CARTESIAN_POINT('',(7.401237885347,2.939406779224,0.));
#307 = CARTESIAN_POINT('',(7.489156626833,2.714057037385,0.));
#308 = CARTESIAN_POINT('',(7.56883094046,2.485577711821,0.));
#309 = CARTESIAN_POINT('',(7.640124113834,2.254346048998,0.));
#310 = CARTESIAN_POINT('',(7.702922589384,2.020746899341,0.));
#311 = CARTESIAN_POINT('',(7.800132809305,1.598337937264,0.));
#312 = CARTESIAN_POINT('',(7.837729669059,1.410260228425,0.));
#313 = CARTESIAN_POINT('',(7.86988156502,1.221135129971,0.));
#314 = CARTESIAN_POINT('',(7.896553047583,1.031159659721,0.));
#315 = CARTESIAN_POINT('',(7.917718196142,0.840532314065,0.));
#316 = CARTESIAN_POINT('',(7.953083678491,0.408527174328,0.));
#317 = CARTESIAN_POINT('',(7.964026809915,0.166881857539,0.));
#318 = CARTESIAN_POINT('',(7.96615723779,-7.508148625279E-02,0.));
#319 = CARTESIAN_POINT('',(7.959466556881,-0.316961690591,0.));
#320 = CARTESIAN_POINT('',(7.943970732293,-0.558357818713,0.));
#321 = CARTESIAN_POINT('',(7.895449487125,-1.039380510448,0.));
#322 = CARTESIAN_POINT('',(7.862423933096,-1.27900839704,0.));
#323 = CARTESIAN_POINT('',(7.820673939692,-1.517352133087,0.));
#324 = CARTESIAN_POINT('',(7.770263934502,-1.754015670283,0.));
#325 = CARTESIAN_POINT('',(7.71128227038,-1.988607602261,0.));
#326 = CARTESIAN_POINT('',(7.588027935622,-2.412851780118,0.));
#327 = CARTESIAN_POINT('',(7.526420639738,-2.603279350229,0.));
#328 = CARTESIAN_POINT('',(7.459082978329,-2.791804919369,0.));
#329 = CARTESIAN_POINT('',(7.38608929913,-2.978213539503,0.));
#330 = CARTESIAN_POINT('',(7.307524657077,-3.162294270118,0.));
#331 = CARTESIAN_POINT('',(7.125438372101,-3.555643678098,0.));
#332 = CARTESIAN_POINT('',(7.019939177843,-3.76399782198,0.));
#333 = CARTESIAN_POINT('',(6.907139533304,-3.96857376379,0.));
#334 = CARTESIAN_POINT('',(6.787210104706,-4.16905320895,0.));
#335 = CARTESIAN_POINT('',(6.66033992272,-4.365128414381,0.));
#336 = CARTESIAN_POINT('',(6.39790439774,-4.741041209999,0.));
#337 = CARTESIAN_POINT('',(6.262810860483,-4.921209429162,0.));
#338 = CARTESIAN_POINT('',(6.12164178035,-5.096740501076,0.));
#339 = CARTESIAN_POINT('',(5.974597240315,-5.267379797952,0.));
#340 = CARTESIAN_POINT('',(5.821891396666,-5.432884409128,0.));
#341 = CARTESIAN_POINT('',(5.493899612152,-5.765023980942,0.));
#342 = CARTESIAN_POINT('',(5.317778109013,-5.930835402093,0.));
#343 = CARTESIAN_POINT('',(5.135671008924,-6.090170905226,0.));
#344 = CARTESIAN_POINT('',(4.94787706243,-6.242762622309,0.));
#345 = CARTESIAN_POINT('',(4.754710731296,-6.388361316561,0.));
#346 = CARTESIAN_POINT('',(4.440310899176,-6.607852860349,0.));
#347 = CARTESIAN_POINT('',(4.32238669345,-6.686487188298,0.));
#348 = CARTESIAN_POINT('',(4.202795938003,-6.762593037977,0.));
#349 = CARTESIAN_POINT('',(4.08160651871,-6.836126525555,0.));
#350 = CARTESIAN_POINT('',(3.958887840648,-6.907046211699,0.));
#351 = CARTESIAN_POINT('',(3.67401119217,-7.063658476263,0.));
#352 = CARTESIAN_POINT('',(3.51086900792,-7.1475612191,0.));
#353 = CARTESIAN_POINT('',(3.345438129381,-7.226936766351,0.));
#354 = CARTESIAN_POINT('',(3.177875801637,-7.301707879731,0.));
#355 = CARTESIAN_POINT('',(3.008342660805,-7.371804646398,0.));
#356 = CARTESIAN_POINT('',(2.681239152791,-7.496582516025,0.));
#357 = CARTESIAN_POINT('',(2.523982134607,-7.552085819632,0.));
#358 = CARTESIAN_POINT('',(2.365354878931,-7.603627403417,0.));
#359 = CARTESIAN_POINT('',(2.205482222939,-7.651165545667,0.));
#360 = CARTESIAN_POINT('',(2.044490641548,-7.694663789319,0.));
#361 = CARTESIAN_POINT('',(1.688129411634,-7.781403520843,0.));
#362 = CARTESIAN_POINT('',(1.492323407707,-7.822853818679,0.));
#363 = CARTESIAN_POINT('',(1.295311790344,-7.858387935907,0.));
#364 = CARTESIAN_POINT('',(1.09731797362,-7.887963253361,0.));
#365 = CARTESIAN_POINT('',(0.898567230977,-7.911548432262,0.));
#366 = CARTESIAN_POINT('',(0.450186155614,-7.951092147012,0.));
#367 = CARTESIAN_POINT('',(0.200256625253,-7.963670023027,0.));
#368 = CARTESIAN_POINT('',(-5.005765232589E-02,-7.966817966631,0.));
#369 = CARTESIAN_POINT('',(-0.300312608957,-7.96052481238,0.));
#370 = CARTESIAN_POINT('',(-0.550064351841,-7.944807305014,0.));
#371 = CARTESIAN_POINT('',(-1.039380510447,-7.895449487125,0.));
#372 = CARTESIAN_POINT('',(-1.27900839704,-7.862423933096,0.));
#373 = CARTESIAN_POINT('',(-1.517352133087,-7.820673939692,0.));
#374 = CARTESIAN_POINT('',(-1.754015670283,-7.770263934502,0.));
#375 = CARTESIAN_POINT('',(-1.988607602261,-7.71128227038,0.));
#376 = CARTESIAN_POINT('',(-2.444870148825,-7.578725744846,0.));
#377 = CARTESIAN_POINT('',(-2.666708515307,-7.505723906384,0.));
#378 = CARTESIAN_POINT('',(-2.885908270162,-7.424936882384,0.));
#379 = CARTESIAN_POINT('',(-3.102129092468,-7.336485586311,0.));
#380 = CARTESIAN_POINT('',(-3.315038334248,-7.240510672782,0.));
#381 = CARTESIAN_POINT('',(-3.741057717922,-7.030143782343,0.));
#382 = CARTESIAN_POINT('',(-3.953904597841,-6.915215905132,0.));
#383 = CARTESIAN_POINT('',(-4.162490591287,-6.792567294051,0.));
#384 = CARTESIAN_POINT('',(-4.366467363345,-6.662397117274,0.));
#385 = CARTESIAN_POINT('',(-4.565499313135,-6.524925323022,0.));
#386 = CARTESIAN_POINT('',(-4.926301794497,-6.255795466567,0.));
#387 = CARTESIAN_POINT('',(-5.08942592189,-6.125950428497,0.));
#388 = CARTESIAN_POINT('',(-5.248429351289,-5.991011678914,0.));
#389 = CARTESIAN_POINT('',(-5.403114347759,-5.851143496091,0.));
#390 = CARTESIAN_POINT('',(-5.553292046128,-5.706520283009,0.));
#391 = CARTESIAN_POINT('',(-5.820994420566,-5.432003823187,0.));
#392 = CARTESIAN_POINT('',(-5.939899288526,-5.303455881577,0.));
#393 = CARTESIAN_POINT('',(-6.055390477644,-5.171792049896,0.));
#394 = CARTESIAN_POINT('',(-6.167366506686,-5.037125987889,0.));
#395 = CARTESIAN_POINT('',(-6.275730990412,-4.899575707687,0.));
#396 = CARTESIAN_POINT('',(-6.480070406405,-4.625632966639,0.));
#397 = CARTESIAN_POINT('',(-6.576389727827,-4.489497097743,0.));
#398 = CARTESIAN_POINT('',(-6.669271774128,-4.350961663368,0.));
#399 = CARTESIAN_POINT('',(-6.758642333318,-4.210135372312,0.));
#400 = CARTESIAN_POINT('',(-6.844431811118,-4.067129945918,0.));
#401 = CARTESIAN_POINT('',(-7.021040154892,-3.755229839557,0.));
#402 = CARTESIAN_POINT('',(-7.110683334025,-3.585669086845,0.));
#403 = CARTESIAN_POINT('',(-7.195405922937,-3.413552468801,0.));
#404 = CARTESIAN_POINT('',(-7.275117788537,-3.239058727476,0.));
#405 = CARTESIAN_POINT('',(-7.349737510064,-3.062370738114,0.));
#406 = CARTESIAN_POINT('',(-7.757352875972,-2.013649693212,0.));
#407 = CARTESIAN_POINT('',(-7.973282061516,-1.095508224133,0.));
#408 = CARTESIAN_POINT('',(-8.057895117922,-0.151905736054,0.));
#409 = CARTESIAN_POINT('',(-8.008906731552,0.794215378184,0.));
#410 = CARTESIAN_POINT('',(-7.827735889287,1.719842893081,0.));
#411 = CARTESIAN_POINT('',(-7.389092770737,2.987998676376,0.));
#412 = CARTESIAN_POINT('',(-7.231806238386,3.3657885693,0.));
#413 = CARTESIAN_POINT('',(-7.05138858479,3.733518071333,0.));
#414 = CARTESIAN_POINT('',(-6.848656421229,4.089432648516,0.));
#415 = CARTESIAN_POINT('',(-6.624601885028,4.431870703153,0.));
#416 = CARTESIAN_POINT('',(-6.260779345283,4.919620275415,0.));
#417 = CARTESIAN_POINT('',(-6.136329640465,5.076369723055,0.));
#418 = CARTESIAN_POINT('',(-6.007179879082,5.229329162117,0.));
#419 = CARTESIAN_POINT('',(-5.873475038158,5.378323344476,0.));
#420 = CARTESIAN_POINT('',(-5.735368717774,5.523184528493,0.));
#421 = CARTESIAN_POINT('',(-5.426953360878,5.827748379869,0.));
#422 = CARTESIAN_POINT('',(-5.255112824258,5.985901341385,0.));
#423 = CARTESIAN_POINT('',(-5.07775944125,6.137956769802,0.));
#424 = CARTESIAN_POINT('',(-4.895164622458,6.283676390738,0.));
#425 = CARTESIAN_POINT('',(-4.707613279045,6.422838249183,0.));
#426 = CARTESIAN_POINT('',(-3.856458223064,7.009134450453,0.));
#427 = CARTESIAN_POINT('',(-3.142544053826,7.383692786948,0.));
#428 = CARTESIAN_POINT('',(-2.386074209915,7.670231393488,0.));
#429 = CARTESIAN_POINT('',(-1.600552180122,7.863379363923,0.));
#430 = CARTESIAN_POINT('',(-0.800145275911,7.959899704658,0.));
#431 = CARTESIAN_POINT('',(-2.E-17,7.959899496853,0.));
#432 = PLANE('',#433);
#433 = AXIS2_PLACEMENT_3D('',#434,#435,#436);
#434 = CARTESIAN_POINT('',(-9.1E-16,-3.E-17,0.));
#435 = DIRECTION('',(0.,0.,1.));
#436 = DIRECTION('',(1.,0.,0.));
#437 = ADVANCED_FACE('',(#438,#441),#452,.T.);
#438 = FACE_BOUND('',#439,.T.);
#439 = EDGE_LOOP('',(#440));
#440 = ORIENTED_EDGE('',*,*,#241,.T.);
#441 = FACE_BOUND('',#442,.T.);
#442 = EDGE_LOOP('',(#443));
#443 = ORIENTED_EDGE('',*,*,#444,.F.);
#444 = EDGE_CURVE('',#445,#445,#447,.T.);
#445 = VERTEX_POINT('',#446);
#446 = CARTESIAN_POINT('',(3.95,0.,10.6));
#447 = CIRCLE('',#448,3.95);
#448 = AXIS2_PLACEMENT_3D('',#449,#450,#451);
#449 = CARTESIAN_POINT('',(0.,0.,10.6));
#450 = DIRECTION('',(0.,0.,1.));
#451 = DIRECTION('',(1.,0.,0.));
#452 = PLANE('',#453);
#453 = AXIS2_PLACEMENT_3D('',#454,#455,#456);
#454 = CARTESIAN_POINT('',(-3.6E-16,6.E-17,10.6));
#455 = DIRECTION('',(0.,0.,1.));
#456 = DIRECTION('',(1.,0.,0.));
#457 = ADVANCED_FACE('',(#458),#479,.F.);
#458 = FACE_BOUND('',#459,.F.);
#459 = EDGE_LOOP('',(#460,#461,#468,#477,#478));
#460 = ORIENTED_EDGE('',*,*,#261,.F.);
#461 = ORIENTED_EDGE('',*,*,#462,.T.);
#462 = EDGE_CURVE('',#262,#198,#463,.T.);
#463 = ELLIPSE('',#464,8.,4.);
#464 = AXIS2_PLACEMENT_3D('',#465,#466,#467);
#465 = CARTESIAN_POINT('',(0.,0.,0.4));
#466 = DIRECTION('',(1.,0.,-0.));
#467 = DIRECTION('',(0.,1.,4.7E-16));
#468 = ORIENTED_EDGE('',*,*,#469,.T.);
#469 = EDGE_CURVE('',#198,#470,#472,.T.);
#470 = VERTEX_POINT('',#471);
#471 = CARTESIAN_POINT('',(0.,-1.13E-13,4.4));
#472 = ELLIPSE('',#473,8.,4.);
#473 = AXIS2_PLACEMENT_3D('',#474,#475,#476);
#474 = CARTESIAN_POINT('',(0.,0.,0.4));
#475 = DIRECTION('',(1.,0.,-0.));
#476 = DIRECTION('',(0.,1.,4.7E-16));
#477 = ORIENTED_EDGE('',*,*,#469,.F.);
#478 = ORIENTED_EDGE('',*,*,#462,.F.);
#479 = SURFACE_OF_REVOLUTION('',#480,#485);
#480 = ELLIPSE('',#481,8.,4.);
#481 = AXIS2_PLACEMENT_3D('',#482,#483,#484);
#482 = CARTESIAN_POINT('',(0.,0.,0.4));
#483 = DIRECTION('',(1.,0.,-0.));
#484 = DIRECTION('',(0.,1.,4.7E-16));
#485 = AXIS1_PLACEMENT('',#486,#487);
#486 = CARTESIAN_POINT('',(0.,0.,0.));
#487 = DIRECTION('',(0.,0.,1.));
#488 = ADVANCED_FACE('',(#489),#508,.T.);
#489 = FACE_BOUND('',#490,.F.);
#490 = EDGE_LOOP('',(#491,#499,#506,#507));
#491 = ORIENTED_EDGE('',*,*,#492,.T.);
#492 = EDGE_CURVE('',#445,#493,#495,.T.);
#493 = VERTEX_POINT('',#494);
#494 = CARTESIAN_POINT('',(3.95,0.,17.6));
#495 = LINE('',#496,#497);
#496 = CARTESIAN_POINT('',(3.95,0.,10.6));
#497 = VECTOR('',#498,1.);
#498 = DIRECTION('',(0.,0.,1.));
#499 = ORIENTED_EDGE('',*,*,#500,.T.);
#500 = EDGE_CURVE('',#493,#493,#501,.T.);
#501 = CIRCLE('',#502,3.95);
#502 = AXIS2_PLACEMENT_3D('',#503,#504,#505);
#503 = CARTESIAN_POINT('',(0.,0.,17.6));
#504 = DIRECTION('',(0.,0.,1.));
#505 = DIRECTION('',(1.,0.,0.));
#506 = ORIENTED_EDGE('',*,*,#492,.F.);
#507 = ORIENTED_EDGE('',*,*,#444,.F.);
#508 = CYLINDRICAL_SURFACE('',#509,3.95);
#509 = AXIS2_PLACEMENT_3D('',#510,#511,#512);
#510 = CARTESIAN_POINT('',(0.,0.,10.6));
#511 = DIRECTION('',(-0.,-0.,-1.));
#512 = DIRECTION('',(1.,0.,0.));
#513 = ADVANCED_FACE('',(#514),#534,.T.);
#514 = FACE_BOUND('',#515,.T.);
#515 = EDGE_LOOP('',(#516,#525,#526,#527));
#516 = ORIENTED_EDGE('',*,*,#517,.F.);
#517 = EDGE_CURVE('',#493,#518,#520,.T.);
#518 = VERTEX_POINT('',#519);
#519 = CARTESIAN_POINT('',(2.95,0.,18.6));
#520 = CIRCLE('',#521,1.);
#521 = AXIS2_PLACEMENT_3D('',#522,#523,#524);
#522 = CARTESIAN_POINT('',(2.95,0.,17.6));
#523 = DIRECTION('',(0.,-1.,0.));
#524 = DIRECTION('',(1.,0.,0.));
#525 = ORIENTED_EDGE('',*,*,#500,.T.);
#526 = ORIENTED_EDGE('',*,*,#517,.T.);
#527 = ORIENTED_EDGE('',*,*,#528,.F.);
#528 = EDGE_CURVE('',#518,#518,#529,.T.);
#529 = CIRCLE('',#530,2.95);
#530 = AXIS2_PLACEMENT_3D('',#531,#532,#533);
#531 = CARTESIAN_POINT('',(0.,0.,18.6));
#532 = DIRECTION('',(0.,0.,1.));
#533 = DIRECTION('',(1.,0.,0.));
#534 = TOROIDAL_SURFACE('',#535,2.95,1.);
#535 = AXIS2_PLACEMENT_3D('',#536,#537,#538);
#536 = CARTESIAN_POINT('',(0.,0.,17.6));
#537 = DIRECTION('',(0.,0.,1.));
#538 = DIRECTION('',(1.,0.,0.));
#539 = ADVANCED_FACE('',(#540),#543,.T.);
#540 = FACE_BOUND('',#541,.T.);
#541 = EDGE_LOOP('',(#542));
#542 = ORIENTED_EDGE('',*,*,#528,.T.);
#543 = PLANE('',#544);
#544 = AXIS2_PLACEMENT_3D('',#545,#546,#547);
#545 = CARTESIAN_POINT('',(-3.5E-16,1.E-17,18.6));
#546 = DIRECTION('',(0.,0.,1.));
#547 = DIRECTION('',(1.,0.,0.));
#548 = ( GEOMETRIC_REPRESENTATION_CONTEXT(3) 
GLOBAL_UNCERTAINTY_ASSIGNED_CONTEXT((#552)) GLOBAL_UNIT_ASSIGNED_CONTEXT
((#549,#550,#551)) REPRESENTATION_CONTEXT('Context #1',
  '3D Context with UNIT and UNCERTAINTY') );
#549 = ( LENGTH_UNIT() NAMED_UNIT(*) SI_UNIT(.MILLI.,.METRE.) );
#550 = ( NAMED_UNIT(*) PLANE_ANGLE_UNIT() SI_UNIT($,.RADIAN.) );
#551 = ( NAMED_UNIT(*) SI_UNIT($,.STERADIAN.) SOLID_ANGLE_UNIT() );
#552 = UNCERTAINTY_MEASURE_WITH_UNIT(LENGTH_MEASURE(2.E-07),#549,
  'distance_accuracy_value','confusion accuracy');
#553 = PRODUCT_RELATED_PRODUCT_CATEGORY('part',$,(#7));
#554 = MECHANICAL_DESIGN_GEOMETRIC_PRESENTATION_REPRESENTATION('',(#555)
  ,#548);
#555 = STYLED_ITEM('color',(#556),#15);
#556 = PRESENTATION_STYLE_ASSIGNMENT((#557,#563));
#557 = SURFACE_STYLE_USAGE(.BOTH.,#558);
#558 = SURFACE_SIDE_STYLE('',(#559));
#559 = SURFACE_STYLE_FILL_AREA(#560);
#560 = FILL_AREA_STYLE('',(#561));
#561 = FILL_AREA_STYLE_COLOUR('',#562);
#562 = COLOUR_RGB('',0.650980421574,0.411764706019,0.956862747054);
#563 = CURVE_STYLE('',#564,POSITIVE_LENGTH_MEASURE(0.1),#565);
#564 = DRAUGHTING_PRE_DEFINED_CURVE_FONT('continuous');
#565 = COLOUR_RGB('',9.803921802644E-02,9.803921802644E-02,
  9.803921802644E-02);
ENDSEC;
END-ISO-10303-21;
